Алешка

Группа/Исполнитель:
Табы:
1|-0---0---0-----0-|---0-----0-------|-----------------|-----------------|
2|-0---0---0---6---|-3---3---3---6---|-1---1---1---3---|-3---3---3---3-6-|
3|-5---5---5-------|-4---4---4-------|-2---2---2-------|-4---4---4-------|
4|---7---7---7-----|---5---5---5-----|---3---3---3-----|---5---5---5-----|
5|-----------------|-----------------|-----------------|-----------------|
6|-----------------|-----------------|-----------------|-----------------|

1|-0---0---0-----0-|---0-----0---8-7-|-----------------|------------------|
2|-0---0---0---6---|-3---3---3---6---|-1---1---1---3---|-3---3---3----8-6-|
3|-5---5---5-------|-4---4---4-------|-2---2---2-------|-4---4---4--------|
4|---7---7---7-----|---5---5---5-----|---3---3---3-----|---5---5---5------|
5|-----------------|-----------------|-----------------|------------------|
6|-----------------|-----------------|-----------------|------------------|
Научились играть:
Пока никто не научился.
0
334
RSS
Нет комментариев. Ваш будет первым!
Загрузка...