Леса

Группа/Исполнитель:
Вступление: Em | Dadd11 | Cadd11 | Hadd11
            Em | Dadd11 | Cadd11 | Hadd11

Перебор:
   Em                       Dadd11                  
1|-7-----7-----8-----7-------5-----5-----7-----5-------
2|---8-----8-----8-----8-------7-----7-----7-----7-----
3|-----9-----9-----9-----9-------7-----7-----7-----7---
4|-----------------------------------------------------
5|-7-------------------------5-------------------------
6|-----------------------------------------------------

   Cadd11                    Hadd11
1|-3-----3-----5-----3-------2-----2------3-----2------
2|---5-----5-----5-----5-------4-----4------4-----4----
3|-----5-----5-----5-----5-------4-----4------4-----4--
4|-----------------------------------------------------
5|-3-------------------------2-------------------------
6|-----------------------------------------------------


Перебор для второй гитары:
   Em                        G
1|-----------------------------------------------------
2|-----0-----0-----0-----0-------0-----0-----0-----0---
3|---0-----0-----0-----0-------0-----0-----0-----0-----
4|-----------------------------------------------------
5|-----------------------------------------------------
6|-0-----0-----0-----0-------3-----3-----3-----3-------

   C                         H7
1|-----------------------------------------------------
2|-----1-----1-----1-----1-------0-----0-----0-----0---
3|---0-----0-----0-----0-------2-----2-----2-----2-----
4|-----------------------------------------------------
5|-3-----3-----3-----3-------2-----2-----2-----2-------
6|-----------------------------------------------------


 Em
Знаешь ли ты,где твой дом
  Dadd11
Какой город,какая страна. 
Cadd11                    
Может это солнце, а может луна,
  Hadd11
А может даже и не земля.

 Em
Знаешь ли ты,где твои сны,
  Dadd11
Какие в них рождаются миры.
Cadd11
Не проживут и дня без весны.
Hadd11
Не проживут,если не ты.


Припев:
  Em
Леса,леса,леса,леса
    Dadd11
Голова моя кружится
      Cadd11
Надо мною светят небеса
  Hadd11
Куда ведут мои глаза

  Em
Куда,куда,здесь полный крах
   Dadd11
я слеп,здесь вечный мрак
 Cadd11
Снова леса поливают мой страх
 Hadd11
Снова ждёт меня мой враг


Проигрыш: Em | Dadd11 | Cadd11 | Hadd11
          Em | Dadd11 | Cadd11 | Hadd11



Em
 Поезда бьются о рельсы
Dadd11 
Мимо пролетают чужие города
    Cadd11 
Не знаю ,что ответить людям на вопросы
Hadd11
Либо нет,либо да

      Em
Проплывают года,пролетают чайки
Dadd11 
И я смотрю за ними вслед
Cadd11 
Я наливаю воду в чайник
   Hadd11
Погреться даю тебе свой плед


Припев:
  Em
Леса,леса,леса,леса
    D
Голова моя кружится
      C
Надо мною светят небеса
  H7
Куда ведут мои глаза

  Em
Куда,куда,здесь полный крах
   D
я слеп,здесь вечный мрак
 C
Снова леса поливают мой страх
 H7
Снова ждёт меня мой враг


Проигрыш: Em | D | C | H7
          Em | D | C | H7
          Em | D | C | H7


 Em
Знаешь ли ты,где твои сны,
  Dadd11
Какие в них рождаются миры.
Cadd11
Не проживут и дня без весны.
Hadd11                 Em
Не проживут,если не ты.

Аппликатуры аккордов:
Комментарий автора:
Для начинающих гитаристов в принципе всю песню можно играть на простых четырех аккордах Em, D, C, H7.
Научились играть:
Пока никто не научился.
0
808
RSS
Нет комментариев. Ваш будет первым!
Загрузка...